Darkness

From: Alessandro Iacopini

This is my bass version. Close to the original but not the same.
The riffs change every time so improvise on them.
I hope that it can be useful to someone.

Bass in standard tuning.

INTRO 
G------------|------------|------------|------------|
D------------|------------|------------|------------|
A------------|------------|------------|------------|
E-00--0--0--0|00--0--0---0|-00--0--0--0|00--0--0---0|



E C/E D/E E
-------------|-------------|------------|-------------|
-------------|-------------|------------|-------------|
-77--575---5-|77--577---5--|77--575---5-|77--575--7-56|
----------7-7|-----------77|---------7-7|----------7--|


E C/E D/E E
-------------|-------------|------------|-------------|
-------------|-------------|------------|-------------|
-77--575---5-|77--577---5--|77--575---5-|77--777-109--|
----------7-7|-----------77|---------7-7|-----------10|


VERSE



Day dawns dark....

E C/E D/E E
-------------|-------------|------------|-------------|
-------------|-------------|------------|-------------|
-77--575---5-|77--577---5--|77--575---5-|77--575--7-56|
----------7-7|-----------77|---------7-7|----------7--|


Life crawls..


E C/E D/E E
-------------|-------------|------------|-------------|
-------------|-------------|------------|-------------|
-77--575---5-|77--577---5--|77--575---5-|77--777-77-77|
----------7-7|-----------77|---------7-7|-------------|


CHORUS


Tomorrow's tomorrow.....


A G F
------------------|-----------------|-------------------|------------------|
------------------|-----------------|-------------------|------------------|
-------4-44-5-55-7|------2-22-3-33-5|------5-55------5--|-----0-00-3-33-53-|
-5-55-------------|-3-33------------|-3-33------3-33---3|1-11-------------5|




The time of the past.....


A G
------------------|-----------------|-------------------|------------------|
------------------|-----------------|5-55-3-33----------|5-55-3-33---------|
-------4-44-5-55-7|------2-22-3-33-5|-----------5-55----|----------5-555-55|
-5-55-------------|-3-33------------|---------------3-3-|------------------|


and uses it.....

E F G A E
----------------|---------------|---------------|--------------|
----------------|---------------|---------------|--------------|
-777-7--575--5-5|-777-7--575--5-|-777-7--575-5-5|-777-7--577777|
------------7-7-|------------7-7|-----------7-7-|--------------|



SOLO as the verse.

From the Peter Hammill Transcriptions Website www.nalogo.com/hammill.
Last changed Mon, Nov 24, 2008